Nickelback

Breathe

D      F
Two men
C
They started walking
G                          D
Started talking 'bout better days
F
One says to the other
C
We do it all again
Bb
Seems I knew I would
D
And now I found it
Bb
Found I adore it
C
I didn't want this
F       C       D
Somebody help me see
D
Now I feel it
Bb
Feel like I've been there
C
I didn't need this
F      C            D
Somebody help me breathe
Here we are again
Just face to facing
Each other another day
Who wins
Well who cares
It always ends up the same
Seems I knew I would
And now I found it
Found I adore  it
I didn't want this
Somebody help me see
And now I feel it
Feel that I've been there
I didn't need this
Would Somebody help me stand
And now I've told them
Already warned them
I didn't want this
Somebody help me breathe
F          C
If I was them
D
Then I wanna be
What I see
F                         C
If I could drag my life in a moment
D
Wanna know do you want me to go
F                        C
Gonna keep it all from ending
Bb                       C
Never stop myself from pretending
D
That you always knew that I never could
All I ever really wanted was to be the same
Equal treatment never ever comes
And there they go again
All I ever really wanted was to be like you
So perfect
So worthless
If i could take it all back think again
I would 

Вверх


Burn It To The Ground

Intro part 1:
eb-------|-----------------------------------------------------|
Bb-------|-----------------------------------------------------|
Gb-------|-----------------------------------------------------|
Db-------|-----------------------------------------------------|
Ab-------|------------------------------------------8-------10-|
Db--/19-|-0-0-15p0-0-12~0-15p0-0-12~0-15p0-0-10h12---12p10----|

Intro part 2:
eb-------------------------------------------------------|
Bb-------------------------------------------------------|
Gb-------------------------------------------------------|
Db-------------------------------------------------------|
Ab-------------------------------------------15----------|
Db--0-0-15p0-0-12~0-15p0-0-12~0-15p0-0-17/19----1917p15-|

Intro part 3:
eb------------------------------------------------------------|
Bb------------------------------------------------------------|
Gb------------------------------------------------------------|
Db------------------------------------------------------------|
Ab------------------------------------------------------------|
Db--0-0-0h10h12--0-0-0h10h12--0-0-0h10h12--/17p15-0-17p15-17b-|
*            *            *
Intro part 4:
eb-----------------------------------------------------|
Bb-----------------------------------------------------|
Gb-----------------------------------------------------|
Db-----------------------------------------------------|
Ab---------------------------------------------6-5-4-3-|
Db--0-0-0h10h12--0-0-0h10h12--0-0-0h10h12-10p0-6-5-4-3-|
*            *            *              * * * *
Verse:
eb-------------------------------------------------------------------------|
Bb-------------------------------------------------------------------------|
Gb-------------------------------------------------------------------------|
Db-------------------------------------------------------------------------|
Ab----------------------8-------10-----------------------------------------|
Db----12----12----10h12---12p10------0-0-0h10h12--0-0-0h10h12--0-0-0h10h12-|
*            *            *
eb-------------------------------------------------------------------------|
Bb-------------------------------------------------------------------------|
Gb-------------------------------------------------------------------------|
Db-------------------------------------------------------------------------|
Ab----------------------------------------3--------------------------------|
Db--/17p15-0-17p15-17b----12----12----3/5---53p0-0-0-0h10h12--0-0-0h10h12-|
*            *
eb--------------------------|
Bb--------------------------|
Gb--------------------------|
Db--------------------------| Repeat
Ab--------------------------|
Db--0-0-0h10h12-5br-3-5br-3-|
*
Chorus: (I'm not listing the number of times each chord is played)
eb------------------------|
Bb------------------------|
Gb--7----5----------------|
Db--7----5----5----3------|
Ab--5----3----5----3------|
Db------------5----3--10b-|
^slow bend
Small interlude between 2nd chorus and solo:
Guitar 1:
eb------------------------------------------------|
Bb------------------------------------------------|
Gb----------------------10---------------------10-|
Db--12-10------------10----12-10------------10----|
Ab--------10-8-10-12-------------10-8-10-12-------|
Db------------------------------------------------|

Guitar 2: (w/Wah)
eb----------------------------------------------|
Bb----------------------------------------------|
Gb----------------------------------------------|
Db-----------------------3----------------------|
Ab--5--3--------------3-----5--3-------------3/-|
Db--------5--3--5--7--------------5-3--5--7-----|

Bridge rhythm:
eb---------------------------------|
Bb---------------------------------|
Gb---------------------------------|
Db--7---5--------------10-------10-|Repeat
Ab--5---3--7---6---5---8--10----8--|
Db----0----7---6---5-0----10--0----|
*              *        *
solo: (w/Wah) the wah makes the solo. Chad is constantly pushing the toe
forward and back in an unorganized fashion. Just be messy with your pedal
and play something like the following and you'll do fine:
eb------------------------------------------------------------------------|
Bb---------------------------------------------------------------10h13p10-|
Gb----------------------------10--12br-12r-12r-12r-12r-12~~~--12b---------|
Db---------------------10-12~---------------------------------------------|
Ab--12~~~-12~-12~-12~~----------------------------------------------------|
Db------------------------------------------------------------------------|
^slowly release this bend

eb----------------------------------------------------------------------|
Bb----10h13p10--10h13p10--10h13p10--10h13p10h13p10--10h13p10---10h13p10-|
Gb--12--------12--------12--------12--------------12---------12---------|
Db----------------------------------------------------------------------|
Ab----------------------------------------------------------------------|
Db----------------------------------------------------------------------|

eb----------------13-15b-15r~-15r~-15r~-15r~-15r-15r-15---|
Bb--13p10-13b--15------------------------------------------|
Gb---------------------------------------------------------|"hahahahahaha"
Db---------------------------------------------------------|
Ab---------------------------------------------------------|
Db---------------------------------------------------------|
^slowly release this bend
End on:
eb----------------------------------------------------------------|
Bb----------------------------------------------------------------|
Gb----------------------------------------------------------------|
Db----------------------------------------------------------------|
Ab--------------------------3-6-5-4-3-0-3-6-5-4-3-0-3-6-5-4-3-0-0-|
Db--5br-3-5br-3-5br-3-5br-3---6-5-4-3-0---6-5-4-3-0---6-5-4-3-0-0-|
* * * * *   * * * * *   * * * * *

Вверх

Do This Anymore

C                            G
Left on an eastbound train
D                               A
Gone first thing this morning
C                             G
Why is what's best for you
D                            A
Always the worst thing for me
Am                     C
When am I gonna learn
G                            D
Why cuz I'm tired of hating
Am                     C
When will it be your turn
G                          D
Why cuz I'm tired of waiting
Am           C              G    D
No, I don't, I don't, no I don't
Am                                        C
No I don't find faith in your false feelings
G                               D
Not through my own misleading
Who'll buy this lie you're selling
Tired of this lie you're telling
C            G
I don't, I won't
D                 A            C G D A
No I won't do this anymore (2x)
Says I'm only tellin half of it
That's probably cause,
There's only half worth tellin
Every time I try to laugh it off
That's when we turn around
And wind up yellin
When am I gonna learn
Why cuz I'm tired of hating
When will it be your turn
Why cuz I'm tired of waiting
No, I don't, I don't, no I don't
No I don't find faith in your false feelings
Not through my own misleading
Who'll buy this lie you're selling
Tired of this lie you're telling
I don't, I won't
No I won't do this anymore (2x)
Says I'm only tellin half of it
That's probably cause,
There's only half worth tellin
Every time I try to laugh it off
That's when we turn around
And wind up yellin
When am I gonna learn
Why cuz I'm tired of waiting
When will it be your turn
Why cuz I'm tired of hating
No, I don't, I don't, no I don't
No I don't find faith in your false feelings
Not through my own misleading
Who'll buy this lie you're selling
Tired of this lie you're telling
I don't, I won't

Вверх

Do This Anymore

intro- F G# D# A#

| e|----------------------------------------------
| B|----------------------------------------------
| G|---------------------8-8-8-8-8-3-3-3-3-3------   4x
| D|-3-3-3-3-3-6-6-6-6-6-8-8-8-8-8-3-3-3-3-3------
| A|-3-3-3-3-3-6-6-6-6-6-6-6-6-6-6-1-1-1-1-1------
| E|-1-1-1-1-1-4-4-4-4-4--------------------------


| E|---------
| B|---------
| G|-3-3-3-3

Вверх

Falls Back On

Intro
e|-------------------------------------------------------------------------|
B|-------------------------------------------------------------------------|
G|--6-76-6-76-4-4-6-76-6-76-9-9-6-76-6-76-4-4-6-76-6-76-6----------|
D|--6-76-6-76-4-4-6-76-6-76-9-9-6-76-6-76-4-4-6-76-6-76-6----------|
A|--4-54-4-54-2-2-4-54-4-54-7-7-4-54-4-54-2-2-4-54-4-54-4----------|
D|-------------------------------------------------------------------------|

Verse:
e|-------------------------------------------------------------------------|
B|-------------------------------------------------------------------------|
G|-5-5-5-5-5-5-5-5-7-7-7-7-7-7-7-7---------------------5-5-----------------|
D|-5-5-5-5-5-5-5-5-7-7-7-7-7-7-7-7-5-5-5h7-5-5h7-5-5h7-5-5-5-5h7-5-5h7-5---|
A|-3-3-3-3-3-3-3-3-5-5-5-5-5-5-5-5-5-5-5h7-5-5h7-5-5h7-3-3-5-5h7-5-5h7-5---|
D|---------------------------------5-5-5h7-5-5h7-5-5h7-----5-5h7-5-5h7-5---|

e|-------------------------------------------------------------------------|
B|-------------------------------------------------------------------------|
G|-----5-5-------------------5-5-------------------------------------------|
D|-5h7-5-5-5-5h7-5-5h7-5-5h7-5-5-5-5h7-5-5h7-5-5h7-------------------------|
A|-5h7-3-3-5-5h7-5-5h7-5-5h7-3-3-5-5h7-5-5h7-5-5h7-------------------------|
D|-5h7-----5-5h7-5-5h7-5-5h7-----5-5h7-5-5h7-5-5h7-------------------------|

Chorus
e|-------------------------------------------------------------------------|
B|-------------------------------------------------------------------------|
G|-5-5-5-5-5-5-5-5-7-7-7-7-7-7-7-7-----------------------------------------|
D|-5-5-5-5-5-5-5-5-7-7-7-7-7-7-7-7-7-8p7-7-8p7-5-5-7-8p7-7-8p7-5-5-7-8p7-7-|
A|-3-3-3-3-3-3-3-3-5-5-5-5-5-5-5-5-7-8p7-7-8p7-5-5-7-8p7-7-8p7-5-5-7-8p7-7-|
D|---------------------------------7-8p7-7-8p7-5-5-7-8p7-7-8p7-5-5-7-8p7-7-|

e|-------------------------------------------------------------------------|
B|-------------------------------------------------------------------------|
G|-------------------------------------------------------------------------|
D|-8p7-5-5-7-8p7-7-8p7-7---------------------------------------------------|
A|-8p7-5-5-7-8p7-7-8p7-7---------------------------------------------------|
D|-8p7-5-5-7-8p7-7-8p7-7---------------------------------------------------|

e|-------------------------------------------------------------------------|
B|-------------------------------------------------------------------------|
G|-5-5-5-5-5-5-5-5-7-7-7-7-7-7-7-7-----------------------------------------|
D|-5-5-5-5-5-5-5-5-7-7-7-7-7-7-7-7-7-8p7-7-8p7-5-5-7-8p7-7-8p7-10-10-------|
A|-3-3-3-3-3-3-3-3-5-5-5-5-5-5-5-5-7-8p7-7-8p7-5-5-7-8p7-7-8p7-10-10-------|
D|---------------------------------7-8p7-7-8p7-5-5-7-8p7-7-8p7-10-10-------|

e|-------------------------------------------------------------------------|
B|-------------------------------------------------------------------------|
G|-------------------------------------------------------------------------|
D|-7-9p7-7-8p7-5-5-7-8p7-7-8p7-10-10-7-8p7-7-8p7-5-5-7-8p7-7-8p7-7---------|
A|-7-8p7-7-8p7-5-5-7-8p7-7-8p7-10-10-7-8p7-7-8p7-5-5-7-8p7-7-8p7-7---------|
D|-7-9p7-7-8p7-5-5-7-8p7-7-8p7-10-10-7-8p7-7-8p7-5-5-7-8p7-7-8p7-7---------|

Verse
e|-------------------------------------------------------------------------|
B|-------------------------------------------------------------------------|
G|-5-5-5-5-5-5-5-5-7-7-7-7-7-7-7-7---------------------5-5-----------------|
D|-5-5-5-5-5-5-5-5-7-7-7-7-7-7-7-7-5-5-5h7-5-5h7-5-5h7-5-5-5-5h7-5-5h7-5---|
A|-3-3-3-3-3-3-3-3-5-5-5-5-5-5-5-5-5-5-5h7-5-5h7-5-5h7-3-3-5-5h7-5-5h7-5---|
D|---------------------------------5-5-5h7-5-5h7-5-5h7-----5-5h7-5-5h7-5---|

e|-------------------------------------------------------------------------|
B|-------------------------------------------------------------------------|
G|-----5-5-------------------5-5-------------------------------------------|
D|-5h7-5-5-5-5h7-5-5h7-5-5h7-5-5-5-5h7-5-5h7-5-5h7-------------------------|
A|-5h7-3-3-5-5h7-5-5h7-5-5h7-3-3-5-5h7-5-5h7-5-5h7-------------------------|
D|-5h7-----5-5h7-5-5h7-5-5h7-----5-5h7-5-5h7-5-5h7-------------------------|

Chorus
e|-------------------------------------------------------------------------|
B|-------------------------------------------------------------------------|
G|-5-5-5-5-5-5-5-5-7-7-7-7-7-7-7-7-----------------------------------------|
D|-5-5-5-5-5-5-5-5-7-7-7-7-7-7-7-7-7-8p7-7-8p7-5-5-7-8p7-7-8p7-5-5-7-8p7-7-|
A|-3-3-3-3-3-3-3-3-5-5-5-5-5-5-5-5-7-8p7-7-8p7-5-5-7-8p7-7-8p7-5-5-7-8p7-7-|
D|---------------------------------7-8p7-7-8p7-5-5-7-8p7-7-8p7-5-5-7-8p7-7-|

e|-------------------------------------------------------------------------|
B|-------------------------------------------------------------------------|
G|-------------------------------------------------------------------------|
D|-8p7-5-5-7-8p7-7-8p7-7---------------------------------------------------|
A|-8p7-5-5-7-8p7-7-8p7-7---------------------------------------------------|
D|-8p7-5-5-7-8p7-7-8p7-7---------------------------------------------------|

e|-------------------------------------------------------------------------|
B|-------------------------------------------------------------------------|
G|-5-5-5-5-5-5-5-5-7-7-7-7-7-7-7-7-----------------------------------------|
D|-5-5-5-5-5-5-5-5-7-7-7-7-7-7-7-7-7-8p7-7-8p7-5-5-7-8p7-7-8p7-10-10-------|
A|-3-3-3-3-3-3-3-3-5-5-5-5-5-5-5-5-7-8p7-7-8p7-5-5-7-8p7-7-8p7-10-10-------|
D|---------------------------------7-8p7-7-8p7-5-5-7-8p7-7-8p7-10-10-------|

Bridge
e|-------------------------------------------------------------------------|
B|-------------------------------------------------------------------------|
G|-------------------------------------------------------------------------|
D|-8-8-8-8-8-8-8-8-8-8-8-8-8-8-8-8-7-8p7-7-8p7-7---------------------------|
A|-8-8-8-8-8-8-8-8-8-8-8-8-8-8-8-8-7-8p7-7-8p7-7---------------------------|
D|-8-8-8-8-8-8-8-8-8-8-8-8-8-8-8-8-7-8p7-7-8p7-7---------------------------|

e|-------------------------------------------------------------------------|
B|-------------------------------------------------------------------------|
G|-------------------------------------------------------------------------|
D|-8-8-8-8-8-8-8-8-8-8-8-8-8-8-8-8-7-8p7-7-8p7-7---------------------------|
A|-8-8-8-8-8-8-8-8-8-8-8-8-8-8-8-8-7-8p7-7-8p7-7---------------------------|
D|-8-8-8-8-8-8-8-8-8-8-8-8-8-8-8-8-7-8p7-7-8p7-7---------------------------|

e|-------------------------------------------------------------------------|
B|-------------------------------------------------------------------------|
G|-----------------------------------5-5-5-5-5-5-5-5-5-5-5-5-5-5-5-5-------|
D|-8-8-8-8-8-8-8-8-8-8-8-8-8-8-8-8-8-5-5-5-5-5-5-5-5-5-5-5-5-5-5-5-5-------|
A|-8-8-8-8-8-8-8-8-8-8-8-8-8-8-8-8-8-3-3-3-3-3-3-3-3-3-3-3-3-3-3-3-3-------|
D|-8-8-8-8-8-8-8-8-8-8-8-8-8-8-8-8-8---------------------------------------|

guitar fades in and out
e|-------------------------------------------------------------------------|
B|-------------------------------------------------------------------------|
G|-------------------------------------------------------------------------|
D|-7-8p7-7-8p7-5-5-7-8p7-7-8p7-10-10-7-8p7-7-8p7-5-5-7-8p7-7-8p7-10-10-----|
A|-7-8p7-7-8p7-5-5-7-8p7-7-8p7-10-10-7-8p7-7-8p7-5-5-7-8p7-7-8p7-10-10-----|
D|-7-8p7-7-8p7-5-5-7-8p7-7-8p7-10-10-7-8p7-7-8p7-5-5-7-8p7-7-8p7-10-10-----|


bass and drums play alone


Verse
e|-------------------------------------------------------------------------|
B|-------------------------------------------------------------------------|
G|-5-5-5-5-5-5-5-5-7-7-7-7-7-7-7-7---------------------5-5-----------------|
D|-5-5-5-5-5-5-5-5-7-7-7-7-7-7-7-7-5-5-5h7-5-5h7-5-5h7-5-5-5-5h7-5-5h7-5---|
A|-3-3-3-3-3-3-3-3-5-5-5-5-5-5-5-5-5-5-5h7-5-5h7-5-5h7-3-3-5-5h7-5-5h7-5---|
D|---------------------------------5-5-5h7-5-5h7-5-5h7-----5-5h7-5-5h7-5---|

e|-------------------------------------------------------------------------|
B|-------------------------------------------------------------------------|
G|-----5-5-------------------5-5-------------------------------------------|
D|-5h7-5-5-5-5h7-5-5h7-5-5h7-5-5-5-5h7-5-5h7-5-5h7-------------------------|
A|-5h7-3-3-5-5h7-5-5h7-5-5h7-3-3-5-5h7-5-5h7-5-5h7-------------------------|
D|-5h7-----5-5h7-5-5h7-5-5h7-----5-5h7-5-5h7-5-5h7-------------------------|

Chorus x2
e|-------------------------------------------------------------------------|
B|-------------------------------------------------------------------------|
G|-5-5-5-5-5-5-5-5-7-7-7-7-7-7-7-7-----------------------------------------|
D|-5-5-5-5-5-5-5-5-7-7-7-7-7-7-7-7-7-8p7-7-8p7-5-5-7-8p7-7-8p7-5-5-7-8p7-7-|
A|-3-3-3-3-3-3-3-3-5-5-5-5-5-5-5-5-7-8p7-7-8p7-5-5-7-8p7-7-8p7-5-5-7-8p7-7-|
D|---------------------------------7-8p7-7-8p7-5-5-7-8p7-7-8p7-5-5-7-8p7-7-|

e|-------------------------------------------------------------------------|
B|-------------------------------------------------------------------------|
G|-------------------------------------------------------------------------|
D|-8p7-5-5-7-8p7-7-8p7-7---------------------------------------------------|
A|-8p7-5-5-7-8p7-7-8p7-7---------------------------------------------------|
D|-8p7-5-5-7-8p7-7-8p7-7---------------------------------------------------|




 

Вверх


Far Away
Intro/Verses
Gtr I            (Verse 1) X 5
e e e e e e e e e e e e e e e e e e e e e e e e e e e e e e e e
|-------------------------------------------------------------------|
|---------------------------------------------------------2---------|
|-----4---3h4---------4---3h4---------4---3h4---------4-----4---4---|
|---4---4-----4-----4---4-----4-----4---4-----4-----4---4-----4-----|
|-2-------------2---------------------------------------------------|
|-----------------2-------------2-4-------------4-0-----------------|

Verse
This time, This place
Misused, Mistakes
Too long, Too late
Who was I to make you wait
Just one chance
Just one breath
Just incase theres just one left


e e e e e e e e e e e e e e e e e e e e e e e
|--------------------------------------------------|
|---------4-------------4---------------7-----7----|
|-----6-----6---6---6-----6---6-----9-----9---9----|
|---6---6-----6-------6-----6-----9---9-----9-8----|
|-4---------------4-------------7------------------|
|--------------------------------------------------|
Pre Chorus
Cause you know
You know, You know

Chorus
B       F#m
That I love you
Ab          Em
I have loved you all along
B        F#m
And I miss you
Ab                Em
Been far away for far too long
B        F#m          Ab
I keep dreamin' you'll be with me
Em              B      F#m
And you'll never go stop breathin
Ab               Em
If I don't see you anymore

Intro/Verses
Gtr I            (Verse 1) X 5
e e e e e e e e e e e e e e e e e e e e e e e e e e e e e e e e
|-------------------------------------------------------------------|
|---------------------------------------------------------2---------|
|-----4---3h4---------4---3h4---------4---3h4---------4-----4---4---|
|---4---4-----4-----4---4-----4-----4---4-----4-----4---4-----4-----|
|-2-------------2---------------------------------------------------|
|-----------------2-------------2-4-------------4-0-----------------|
2nd Verse
On my knees i'll ask
Last chance for one last dance
cause with you, I'd withstand
All of hell to hold your hand
I'd give it all
I'd give for us
Give anything but I won't give up

e e e e e e e e e e e e e e e e e e e e e e e
|--------------------------------------------------|
|---------4-------------4---------------7-----7----|
|-----6-----6---6---6-----6---6-----9-----9---9----|
|---6---6-----6-------6-----6-----9---9-----9-8----|
|-4---------------4-------------7------------------|
|--------------------------------------------------|
Pre Chorus
Cause you know
You know, You know

Chorus
B       F#m
That I love you
Ab          Em
I have loved you all along
B        F#m
And I miss you
Ab                Em
Been far away for far too long
B        F#m          Ab
I keep dreamin' you'll be with me
Em              B      F#m
And you'll never go stop breathin
Ab               Em
If I don't see you anymore

Gtr I
e e e e e e e e e e e e e e e e e e e e e e e e e e e e e e e e
|-------------------------------------------------------------------|
|---------------------------------------------------------2---------|
|-----4---3h4---------4---3h4---------4---3h4---------4-----4---4---|
|---4---4-----4-----4---4-----4-----4---4-----4-----4---4-----4-----|
|-2-------------2---------------------------------------------------|
|-----------------2-------------2-4-------------4-0-----------------|
Bridge
So far away
Been far away for far too long
So far away
Been far away for far too long

e e e e e e e e e e e e e e e e e e e e e e e
|--------------------------------------------------|
|---------4-------------4---------------7-----7----|
|-----6-----6---6---6-----6---6-----9-----9---9----|
|---6---6-----6-------6-----6-----9---9-----9-8----|
|-4---------------4-------------7------------------|
|--------------------------------------------------|
Pre Chorus
But you know
You know, You know

Chorus
B   F#m
I wanted
Ab          Em
I wanted you to say
B         F#m
Cause I needed
Ab
I need to hear you say
C#        Ab
That I love you
Bb              F#m
I have love you all along
C#          Ab
And I forgive you
Bb                    F#m
For being far away for far too long
C#          Ab       Bb                   F#m
So keep Breathin' cause I'm not leavin' you anymore
C#     Ab     Bb                     F#m
Not leavin' hold on to me and never let me go
C#        Ab    Bb                    F#m
keep Breathin' cause I'm not leavin' you anymore
C#     Ab     Bb                     F#m
Not leavin' hold on to me and never let me go
C#        Ab    Bb                      F#m
Keep Breathin' Hold on to me and never let me go
C#        Ab    Bb        F#m
Keep Breathin' and never let me go
Вверх
Falls Back On
Verse

G|-----------|------------|-----------|---------|
D|-----------|------------|-----------|---------|
A|0-100-10---|0-100-10-33-|0-100-10---|0-100-100|
D|--------55-|------------|--------55-|---------|


Chorus

G|------------------|----------------------|
D|------------------|-----------------(x4)-|
A|33333333-555550-0-|----------------------|
D|------------------|7--5h7--5h7-101010----|

G|------------------|
D|------------------|
A|33333333-55555555-|
D|------------------|

G|-----------|------------|-----------|---------|
D|-----------|------------|-----------|---------|
A|0-100-10---|0-100-10-33-|0-100-10---|0-100-100|
D|--------55-|------------|--------55-|---------|

G|------------------|
D|------------------|
A|33333333-55555555-|
D|------------------|

G|-----------|------------|
D|-----------|------------|
A|0-100-10---|0-100-10-33-|
D|--------55-|------------|

Verse

G|-----------|------------|-----------|---------|
D|-----------|------------|-----------|---------|
A|0-100-10---|0-100-10-33-|0-100-10---|0-100-100|
D|--------55-|------------|--------55-|---------|

Chorus

G|------------------|----------------------|
D|------------------|-----------------(x4)-|
A|33333333-555550-0-|----------------------|
D|------------------|7--5h7--5h7-101010----|

G|------------------|
D|------------------|
A|33333333-55555555-|
D|------------------|

G|-----------|------------|-----------|---------|
D|-----------|------------|-----------|---------|
A|0-100-10---|0-100-10-33-|0-100-10---|0-100-100|
D|--------55-|------------|--------55-|---------|

G|------------------|
D|------------------|
A|33333333-55555555-|
D|------------------|

G|-----------|------------|
D|-----------|------------|
A|0-100-10---|0-100-10-33-|
D|--------55-|------------|

Bridge

G|----------------|----------| (x2)
D|----------------|----------|
A|----------------|----------|
D|8888888888888888|7-877-877-|

G|----------------|----------------|
D|----------------|----------------|
A|----------------|----------------|
D|8888888888888888|3333333333333333|

G|-----------|------------|-----------|---------|
D|-----------|------------|-----------|---------|
A|0-100-10---|0-100-10-33-|0-100-10---|0-100-100|
D|--------55-|------------|--------55-|---------|

Verse

G|-----------|------------|-----------|---------|
D|-----------|------------|-----------|---------|
A|0-100-10---|0-100-10-33-|0-100-10---|0-100-100|
D|--------55-|------------|--------55-|---------|


Chorus

G|------------------|----------------------|
D|------------------|-----------------(x4)-|
A|33333333-555550-0-|----------------------|
D|------------------|7--5h7--5h7-101010----|

G|------------------|
D|------------------|
A|33333333-55555555-|
D|------------------|

G|-----------|------------|-----------|---------|
D|-----------|------------|-----------|---------|
A|0-100-10---|0-100-10-33-|0-100-10---|0-100-100|
D|--------55-|------------|--------55-|---------|

G|------------------|
D|------------------|
A|33333333-55555555-|
D|------------------|

G|-----------|------------|-----------|---------|
D|-----------|------------|-----------|---------|
A|0-100-10---|0-100-10-33-|0-100-10---|0-100-10-|
D|--------55-|------------|--------55-|--------5|
Вверх
 

 Feeling Way Too Damn Good
Intro/Verses
E----0---0-----0----0---3-----
B----3---3-----3----3---3-----
G----2---0-----0----0---0----
D----0---0-----0----0---0----
A----0---3-----2----1---1----
E----x---x-----x----x---x-----


I missed you so much
That I begged you to fly and see me
You must've broke down
Coz you finally said that you would
But now that you're here
I just feel like I'm constantly dreaming
C                      G                    D
Coz something's gotta go wrong Coz I'm feelin' way too damn good

(Intro/Verses)
For 48 hours I don't think that we left my hotel room
Should show you the sights
Coz I'm sure that I said that I would
We gotta make love just one last time in the shower
C                      G                    D
Coz something's gotta go wrong Coz I'm feelin' way too damn good

(all barred chorus)
A#       F
And it's like, every time I turn around
C                                   G
I fall in love and find my heart face down and
F             F*                              C, A#,G,F,G
Where it lands is where it should
A#   F                       C                                    G
This time it's like The two of us should probably start to fight
F
Coz something's gotta go wrong
G                (Intro)
Coz I'm feeling way too damn good, oh

Feelin' way too damn good

Intro/Verses
Sometimes I think best if left in the memory
It's better kept inside than left for good
Lookin' back each time they tried to tell me
C                       G                    D
well something's gotta go wrong Coz I'm feelin' way too damn good
Вверх
 Figured You Out


C
I like your pants around your feet
Bb
I like the dirt that's on your knees
F
And I like the way you still say please

While you're looking up at me
C
You're like my favourite damn disease


(All the verses are the same).
Chorus:

C
Oooooh
Bb
And now I know who you are
F
It wasn't that hard
C
Just to figure you out
Bb
And now I know who you are
F
It wasn't that hard
C
Just to figure you out
Вверх
 Fly
Am#      C#

Father, tell me somethin'
A                H            Am#

Where do bad men go when they die?
C#         A

And mother says you'll go there but
H                Am#   C#
Wings for her and I and I don't mind
A                  H
Cause I have always wanted to learn to...



Horus:
F#   G#
Fly... learn to
F#   G#
Fly... learn to
F#   G#
Fly... learn to
A    H
Fly...



Brother, tell me somethin'
If I take this, am I going to die?
And he says no, so then I figure what the hell
I'll try cause it's my life
So light the match and you and I will...



Horus:
Fly... learn to

Fly... learn to

Fly... learn to

Fly...





Horus 2(квинты)

H              F#         G#                 A            H
Cause I'm on my hands and knees I've crawled eternity to beg forgiveness
F#            G#                A                 H
And someday I'll be there I swear to you, God, as my witness
F#          G#                    A                      H
For all the trusts I've broke and, let justice know, it's just that easy
F#           G#         A            H
Cause I'm a liar, I conspired, I'm a liar...



And father tell your son,
It's not your gun and bloody hands
Don't hide behind locked doors
In dresser drawers those bullets wait to fly...



Fly... wait to

Fly... wait to

Fly... wait to

Fly...



Horus 2(квинты)



Cause I'm on my hands and knees
I've crawled eternity to beg forgiveness
And someday I'll be there I swear to you,
God, as my witness
For all the trusts I've broke and,
let justice know, it's just that easy
Cause I'm a liar, I conspired, I'm a liar...





Вверх
 
 Follow You Home


Intro: A5 G5 A5 G5 A5 C5
G5 A5 G5 A5 C5   G5 A5
C5 A5 G5 A5 C5   G5 A5   F5   C5 D5 2x

F5          C5     D5
Well you can dig me up a grave
N.C.
And try and stick me in the ground
Well you can tie me to the bed
D5
And try and beat me half to death
But you can never keep me down
A5 G5 A5 C5   G5 A5
Well you can stick me in a hole
D5                    C5     A5 G5 A5
G5 A5
And you can pray all day for rain
D5            C5 D5     A5 G5
You can shoot me in the leg
A5   C5     G5 A5
Just to try to make me beg
D5                   C5        A5 G5 A5
G5 A5   D5
And you can leave me there for days

[CHORUS]
C5  D5  F5
And I'll stay alive
D5                 A5 G5 A5 C5  G5
D5   C5 A5 G5 A5 C5  G5
D5
Just to follow you home
C5 D5 F5         D5
And I will survive
A5
'Cause you're my Mississippi Princess
D5            G5
You're my California Queen
C5
Like the Duchess of Detroit
G5             C5
And every city in between
A5
You can slap me in the face
D5       G5
You can scream profanity
C5
Leave me here to die alone but
G5 A5 G5   A5 C5  A5   G5
I'll still follow you home
I'll still follow you home

You can make a couple calls
And tell your brothers I'm in town
Put a bounty on my head
And tell my parents that I'm dead
And hope to hell I'm never found
You can steal me the keys
To your daddy's Cadillac
You can tamper with the brakes
Call it a mistake
And pray I'm never coming back

[CHORUS]

Interlude:
A5 G5 A5 C5  G5 A5   F5
C5 D5 A5 G5 A5 C5  G5
D5   C5
A5 G5 A5 C5  G5 A5   F5   D5C5 D5

----5---5-------5--5-------5---------5---5-------5--5------------------------|
-8>5-----5---8>5-----5---8>5-----5-8>5-----5---8>5-----5---8>5--10-10-10-----|.
-----------------------------------------------------------------------------|
-----------------------------------------------------------------------------|
-----------------------------------------------------------------------------|
-----------------------------------------------------------------------------|

You can dig me up a grave
And try and stick me in the ground
You can tie me to the bed
And try and beat me half to death
But you can never keep me down

And I will survive
'Cause you're my Mississippi Princess
You're my California Queen
Like the Duchess of Detroit
And every city in between
You can slap me in the face
You can scream profanity
Leave me here to die alone but
I'll still follow you home
I'll still follow you home 
Вверх

Life

Standard Tuning

*1 - Intro/Verse
E |--------------------------|----------------------------------------|
B |--------------------------|----------------------------------------|
G |------------------------0-|----------------------------0-----------|
D |----9-----0-------4---4-5-|----9-----0-----------------------------|
A |--7-----7-----5-----5-----|--7-----7------------9----9-------------|
E |0-----8-------------------|0-----8-------8/10-----10---------------|
(both of these are the same notes ... play it how you like)

E |3----2----1---|
B |--3----3----2-|
G |----2----2----|
(litte fill in the verse -- it's an arpeggiated Dsus4 - D - Dsus2)

*2 - Chorus

D5 G5 E5
E |-------------------------------------------------------------------|
B |-------------------------------------------------------------------|
G |--------7----------------------------------------------------------|
D |2---5---7----------------------------------------------------------|
A |2---5---5----------------------------------------------------------|
E |0---3--------------------------------------------------------------|
(Too lazy to do rhythm -- put the guitar down if you can't get it )

*3 - Solo (not extraordinarily difficult as solos go...)

E |-------------------------------------------------------------------|
B |-------------------------------------------------------------------|
G |7/9-9-9-97-7/9--9-9-9-97-7-7-7/9-9-9-9/11-11-11-11/12-12/14-12/16|
D |-------------------------------------------------------------------|
A |-------------------------------------------------------------------|
E |-------------------------------------------------------------------|

E |-------------------------------------------------------------------|
B |-------------------------------------------------------------------|
G |1614-14-14-1412-12---1211-119-9/11-11----------12-11---9-7-9---|
D |---------------------------------------------12-14-----------------|
A |-------------------------------------------------------------------|
E |-------------------------------------------------------------------|


E |-------------------------------------------------------------------|
B |-------------------------------------------------------------------|
G |----------11h12-16-14-12-11----------------0-2---0-----------------|
D |-----12h14---------------------2-0-----2-4---------4-2---0-2-------|
A |12h14------------------------------4-5-----------------------------|
E |-------------------------------------------------------------------|


E |-------------------------------------------------------------------|
B |-------------------------------------------------------------------|
G |--------------11h12-12/16-14---12-11-------------------------------|
D |-----12h14-12--------------------------12-14-----------------------|
A |12h14--------------------------------------------------------------|
E |-------------------------------------------------------------------|


E |-------------------------------------------------------------------|
B |-------------------------------------------------------------------|
G |--------------------------11-x-11---11-11--11-11-12---12-12-12-----|
D |14---12-12-12-14---14-14-------------------------------------------|
A |--------------------------9--x-9----9--9---9--9--10---10-10-10-----|
E |12---10-10-10-12---12-12-------------------------------------------|

E |-------------------------------------------------------------------|
B |------------------------------15-15--------------------------------|
G |12-12-12/14-14-14---16-x-16----------------------------------------|
D |------------------------------12-12--------------------------------|
A |10-10-10/12-12-12---14-x-14----------------------------------------|
E |-------------------------------------------------------------------|







Loser

Intro: 
[E--------2------|-----2---------
B--------2------|-----3---------
G--------2------|-----2---------
D--------4------|-----0---------
A--------4------|-----0---------
E--------2------|-----0---------]
> F#- D
> F#- D
Breathe in rigth away nothing seems to fill this place
I need this every time, take your lies get off my case
Some day i will find a love that flows thtough me like this
An this will fall away this will fall away
(It goes like that all along the verse)
Chorus
> E F#- D5 E5
Вверх
Hero
F#m                   D
I'm so high, I can hear Heaven
F#m                  D
I'm so high, I can hear Heaven
F        G
Oh but Heaven, no Heaven
A
Don't hear me
*Chorus*
F
And they say that a hero can save us
G                            A
I'm not gonna stand hear and wait
F
I'll hold onto the wings of the eagles
G                        A
Watch as they all fly away
Someone told me love alone will save us
But how could that be, look what love gave us
A world full of killing and blood spilling
That won't ever cave
*Chorus*
And they say that a hero can save us
I'm not gonna stand here and wait
I'll hold on to the wings of the eagles
Watch as they all fly away
Now that the world isn't ending
It's love that I'm sending to you
It is in the love of a hero
And that's why I fear it won't do
*Chorus*
And they say that a hero can save us
I'm not gonna stand here and wait
I'll hold onto the wings of the eagles
Watch as they all fly away
And they're watching us[watching us]
Watching us[watching us]
As they all fly away
And they're watching us[watching us]
Watching us[watching us]
As they all fly away
And they're watching us[watching us]
Watching us[watching us]
As they all fly away

Вверх

 
If Today Was Your Last Day

Intro Chord
F

C D# A# A#

My best friend gave me the best advice
He said each day's a gift and not a given right
Leave no stone unturned, leave your fears behind
And try to take the path less traveled by
That first step you take is the longest stride

G# D# A#

If today was your last day
and tomorrow was too late
Could you say goodbye to yesterday?
Would you live each moment like your last?
Leave old pictures in the past
Donate every dime you have?
If today was your last day

C                D#                  A#                 A#

e|----------6--------------------6---------------------------3---------------|
B|-----4---------4---4/6------4------4---46---------------------4----6-------|
G|------------------------------------------------------------------------5--|
D|---------------------------------------------------------------------------|
A|---------------------------------------------------------------------------|
E|---------------------------------------------------------------------------|


C D# A# A#

Against the grain should be a way of life
What's worth the prize is always worth the fight
Every second counts 'cause there's no second try
So live like you'll never live it twice
Don't take the free ride in your own life


G# D# A#

If today was your last day
and tomorrow was too late
Could you say goodbye to yesterday?
Would you live each moment like your last?
Leave old pictures in the past
Donate every dime you have?
Would you call old friends you never see?
Reminisce of memories
Would you forgive your enemies?
Would you find that one you're dreamin' of?
Swear up and down to God above
A# F
That you finally fall in love
F
If today was your last day


Bridge

D# A# F F (x4)

If today was your last day
Would you make your mark by mending a broken heart?
You know it's never too late to shoot for the stars
Regardless of who you are
So do whatever it takes
'Cause you can't rewind a moment in this life
Let nothin' stand in your way
Cause the hands of time are never on your side


G# D# F

If today was your last day
and tomorrow was too late
Could you say goodbye to yesterday?


G# D# A#

Would you live each moment like your last?
Leave old pictures in the past
Donate every dime you have?
Would you call old friends you never see?
Reminisce of memories
Would you forgive your enemies?
Would you find that one you're dreamin' of?
Swear up and down to God above
That you finally fall in love
F
If today was your last day

Вверх
 Leader Of Men
E                     G6
Tell your friends not to think aloud
D/F#            E
Until they swallow
E                     G6
Whisper things into my brain
D/F#              E
Your voice sounds so hollow
I am not a leader of men
Since I prefer to follow
Do you think I could have a drink
Since it's so hard to swallow
So hard to swallow
So turn the television off
And I will sing a song
And if you suddenly have the urge
You can sing along
I touch your hand, I touch your face
I think the fruit is rotten
Give me lessons on how to breath
Cause I think I've forgotten
I think I've forgotten
One day, up to a cliff
That overlooked the water
I jumped in to save a girl
It was somebody's daughter
And now the ring is on my hand
It was given to me by her
To this day we all sit around
And dream of ways to get higher
To get much higher
Вверх
 Mistake



Вступление
|---------------------------------------------------
|------------------------------3-----3-----3--------
|------0-----0-----0-----0-----0-----0-----0--------
|----5-----5-----5-----3-----2-----2-----2-----2---3
|--6-----6-----6-----4-----3-----3-----3-----3---4--
|---------------------------------------------------
--------------------------------------------|
------------------------------3-----4-3---3-|
------0-----0-----0-----0-----0---------0-0-|
----5-----5-----5-----3-----2-------------2-|
--6-----6-----6-----4-----3---------------3-|
--------------------------------------------|
Куплет играется также как и вступление
Вот вам аккорды припева: /B-F/D#/
В конце опять играете вступление
Со словами: I've never been lost  never been found...
играйте аккорды припева на первых 4-х струнах (короче арпеджио)
Теперь слова:
So i sift and drift through bullshit
That plagues from day to day
Whould you ever really noticed
I'm gone away
I'm over the wall
Over the hill
Over your place
I'm over the safeteys
Over the phonecalls
Over the rage
What a mistake
When you lost the stones to throw
Ones i found to make a fire
And the lonely souls who said so
Get fired
I'm over the wall
Over the hill
Over your place
I'm over the safeteys
Over the phonecalls
Over the rage
What a mistake
I've never been lost
Never been found
It makes no difference
If i'am around
It's never been words
Never been actions
Never been promises i've never kept
I'm over the wall
Over the hill
Over your place
I'm over the safeteys
Pullin' on your treads i'm always
Over the phonecalls
Pullin' on your treads i'm always
Over the rage
Pullin' on your treads i'm always
What a mistake

Вверх



Never Again

Verse :
------------------------------------------------------
------------------------------------------------------
-7-7-7--10-10-10--5-5-5--------7-7-7--10-10-10--------  X2
-------------------------33-5-------------------55-3--
-5-5-5--8--8--8---3-3-3--33-5--5-5-5--8--8--8---55-3--
-------------------------33-5-------------------55-3--
Когда он поет : You see him licking his hand, sheэs just a woman....
(pre-chorus)
--------
--------
--5-----  Потом опять verse.
--5--5--
--3--5--
-----5--
Chorus :
------------------------------
------------------------------
--7-7-7--5-5-5----------------  X 3
--7-7-7--5-5-5--5-5-5--3-3-3--
--5-5-5--3-3-3--5-5-5--3-3-3--
----------------5-5-5--3-3-3--
После второго куплета :
-------------------------------
-------------------------------
------------------------------- X 4
--3-3-0--3-3-0--3-3-0-5-3-5-6--
--3-3-0--3-3-0--3-3-0-5-3-5-6--
--3-3-0--3-3-0--3-3-0-5-3-5-6--
-----------
-----------
----------- X 3
--5-3-6-0--
--5-3-6-0--
--5-3-6-0--
Вверх
 Never Gonna Be Alone
E             B                    A
Time, is going by, so much faster than I
E
And I'm starting to regret not spending all of it with you
E              B                             A
Now I'm, wondering why, I've kept this bottled inside
E
So I'm starting to regret not telling all of it to you
G
So if I haven't yet, I've gotta let you know...


Your never gonna be alone!
E
From this moment on,
A
If you ever feel like letting go,
E
I won't let you fall...
A
Your never gonna be alone!
E
I'll hold you 'til the hurt is gone.

E                  B                               A
And now, as long as I can, I'm holding on with both hands,
E
'Coz forever I believe that there's nothing I could need but you,
G
So if I haven't yet, I've gotta let you know...


Your never gonna be alone!
E
From this moment on,
A
If you ever feel like letting go,
E
I won't let you fall...
A
When all hope is gone
E
I know that you can carry on
A
We're gonna see the world out
E
I'll hold you 'til the hurt is gone.

Am
Ooooh! You've gotta live every single day,
Em
Like it's the only one, what if tomorrow never comes?
Am
Don't let it slip away, Could be our only one, you know it's only just begun.
Em
Every single day, Maybe our only one, what if tomorrow never comes?
Am
Tomorrow never comes...

E             B                    A
Time, is going by, so much faster than I
E
And I'm starting to regret not spending all of it with you
E              B                             A
Now I'm, wondering why, I've kept this bottled inside
E
So I'm starting to regret not telling all of it to you
G
So if I haven't yet, I've gotta let you know...


Your never gonna be alone!
E
From this moment on,
A
If you ever feel like letting go,
E
I won't let you fall...
A
When all hope is gone
E
I know that you can carry on
A
We're gonna see the world out
E
I'll hold you 'til the hurt is gone.

A
I'm gonna be there always,
E
I won't be missing a word all day,
A
I'm gonna be there always,
E
I won't be missing a word all day.




Вверх
 
 Photograph
E1          E2             E3           E4
e------------|-------------|------------|------------- ( About the strumming
B------------|-------------|------------|-------------  just strum down, up,
G---1--------|---8---------|---4--------|----6--------  down, up one right
D---2--------|---9---------|---5--------|----7--------  after the other.)
A---2--------|---9---------|---5--------|----7--------
E------------|-------------|------------|-------------




( Now I'll just right the lyrics with the name above it and then you'll know which chord to use)





Verse 1

E1                      E2                                E3
Look at this Photograph, everytime I do it makes me laugh,
E4                                 E1
How did our eyes get so red, and what the hell is on joeys head.

Verse 2

E1                              E2                                      E3
And this is where I grew up, I think the present owner fixed it up,
E4                                        E1
I never knew we ever went without,the second floor is high for sneakin out

Verse 3

E1                               E2                                       E3
and this is where I went to school, most of the time had better things to do
E4                                  E1
Criminal record says I broke in twice, I must have done half a dozen times

Verse 4

E1                          E2                                   E3
I wander if it's too late, should I go back and try to graduate,
E4                                 E3
Life's better now than it was back then, if I was them I would'nt let me in!
E4
Oh Oh Oh... Oh God I!


Chorus
E1                                            E2
Every memory of lookin out the back door, I had the photo album spread
E3                           E4
out on my bedroom floor, It's hard to say it, time to say it, Good-bye!

Good-bye!

E1                                               E2
Every memory of walkin out the front door, I found the photo of the friend
E3                            E4
that I was looking for, It's hard to say it, time to say it, Good-Bye! Good-

Bye!


(E1, E2, E3, E4)


Verse 1
E1                            E2                                    E3
We used to listen to the radio, and sing along to every song we'd know,
E4
We said someday we'd find out how it feels, to sing to more than just the
E1
steering wheel.


Verse 2
E1                       E2                                      E3
Kim's the first girl I kissed, I was so nervous that I nearly missed,
E4
She's had a couple of kids since then, I haven't seen her since god knows
E3             E4
when!  Oh Oh Oh... Oh God I!


Chorus



Bridge
E3, E4, E1             E2            E3                     E4
I miss that town, I can't beleive it, So hard to stay, so hard to
E1
leave it!

E1                      E2
If I could Relive those days, I know the one thing that would never
E3
change...

Chorus

E1                 E2                                 E3
Look at this photograph, everytime I do It makes me laugh,
E4
Everytime I do it makes me...





Вверх

 Saturday Nights Alright For



Intro:

e|--------------------------|
B|-8-8-7---8--8-7---8--8-7--|
G|-7-7-7---7--7-7---7--7-7--|
D|--------------------------|
A|--------------------------|
E|--------------------------|

e|----------------|
B|-6-6-5---6--6-5-|
G|-5-5-5---5--5-5-|
D|----------------|
A|----------------|
E|----------------|

Verse 1

A
Its getting late i havent seen my date
G
so tell me when the boys get here
D
seven o'clock, and i wanna rock
A
wanna get a belly full o' beer

A
my old man's drunker than a bar full of winos
G
and his old lady, she don't care.
D
sisters lookin' cute in her braces and boots
A
a handful of grease in her hair

E
oh........


(chorus)
D
don't give us none of your aggravation
C
we've had it with your discipline
G
cuz saturday nights alright for fighting
D
get a little action in

D
get about as oiled as a diesel train
C
gonna set this town alight
G
cuz saturday nights the night I like
D                                    A
saturday nights alright (alright alright)

(D - C-B - A)

wooooooo


Verse 2

A
p-p-p-p-packed pretty tight in here tonight
G
im lookin for a woman to see me right
D
I could use a little muscle to get what i need
A
i'll drink a fifth of jack and scream out, "Shes with ME!" (?)

A
a couple of sounds that i really like
G
are the sounds of a switch-blade and a motorbike
D
yeah im a juvenile product of the working class
A
who's best friend flows from the bottom of a glass
E
oh........

(chorus)

D
don't give us none of your aggravation
C
we've had it with your discipline
G
cuz saturday nights alright for fighting
D
get a little action in

D
get about as oiled as a diesel train
C
gonna set this town alight
G
cuz saturday nights the night I like
D                                    A
saturday nights alright (alright alright)

(D - C-B - A)

wooooooo

solo (thru proper intro)

e|--------------------------|
B|-8-8-7---8--8-7---8--8-7--|
G|-7-7-7---7--7-7---7--7-7--|
D|--------------------------|
A|--------------------------|
E|--------------------------|

e|--------------------------|
B|-6-6-5---6--6-5---6--6-5--|
G|-5-5-5---5--5-5---5--5-5--|
D|--------------------------|
A|--------------------------|
E|--------------------------|

e|-----------------------------------------------------|
B|-13-13-12---13--13-12---13--13-12-----8-8-7---8--8-7-|
G|-12-12-12---12--12-12---12--12-12-----7-7-7---7--7-7-|
D|-----------------------------------------------------|
A|-----------------------------------------------------|
E|-----------------------------------------------------|


E
oh....

(chorus)
D
don't give us none of your aggravation
C
we've had it with your discipline
G
cuz saturday nights alright for fighting
D
get a little action in

D
get about as oiled as a diesel train
C
gonna set this town alight
G
cuz saturday nights the night I like
D
saturday nights alright

Outtro

D
saturday, saturday, saturday
C
saturday, saturday, saturday
G                             D
saturday, saturday, saturday nights alright....
Вверх
 Shouldve Listened




Nickelback - "Should've Listened"
Hm(/11)  E(/7)
E|-0-   E|-0-
H|-3-   H|-3-
G|-4-   G|-1-
D|-4-   D|-2-
A|-2-   A|-2-
E|-x-   E|-0-
Hm(/11)
There's clothes all over the floor
D
I don't remember them being here before
G                          A
Smell of perfume isn't here, why's lipstick on the mirror?
E(/7)
And still I don't understand
No pictures left in the hall, there's three new holes in my wall
Where the hells my credit cards, why's my wallet in the yard
And still I don't understand
Well now I guess I should've listened
When you said you'd had enough
A little trick I picked up from my father
In one ear and out the other, whys love gotta be so tough?
Should see the look on my face, my shit's all over the place
Why's this happening to me, why'd you take both sets of keys?
And still I don't understand
Well now I guess I should've listened
When you said you'd had enough
A little trick I picked up from my father
In one ear and out the other, Whys love gotta be so tough?
Well now I guess I should've listened
There's clothes all over my floor
I don't remember them being here before
There are no candles in here, lipstick still on my mirror?
And still I don't understand
Now I guess I should've listened
When you said you'd had enough
A little trick I picked up from my father
In one ear and out the other, why must life be so tough?
Well now I guess I should've listened
When you said you'd had enough
A little trick I picked up from my father
In one ear and out the other, whys love gotta be so tough 
Вверх
 
 
 Someday


Hm             Gm              A
How the hell'd we wind up like this
Dm
Why weren't we able
Hm             Gm        A
To see the signs that we missed
Dm
And try to turn the tables
Hm             Gm        A
I wish you unclench your fists
Dm
And unpack your suitcase
Hm             Gm               A
Lately there's been too much of this
Dm
But dont think it's too late
A
Nothing's wrong
Em
just as long as you know that someday i will
Кто хочет сыграть партию distortion, сыграйте те же аккорды в припеве
рифами, по рифам сыграйте и басс :)
Gm       Dm
Someday, somehow
A                           Em
I'm gonna make it all right but not right now
Gm     A
I know you wondering when
Hm
You're the only one who knows that
Gm       Dm
Someday, somehow
A                           Em
I'm gonna make it all right but not right now
Gm       A        Hm
I know you wondering when
Вверх
 
 
 Worthy To Say



Verse
e|------------------|
B|------------------|
C|------------------|  (Play this through the verses 1,2,3
F|---------------12-|   And after the bridge at the end of the
G|---11-----11------|   song aswell)
A|-0----0-0----0----|

They usually come around about ten o.clock
You can hear them
You can tell "em" by the way they knock
Somebody said the other had a badge
Who told ya who told ya


Chorus
C           D             A
How about if I stay and you run away
C              D                  A
Well come on back and try again some other day
C          D          A
Well somebody's gonna do it again
C               D                    A
Gonna make me turn against all of my friends
C                D                A
So you better have sommething damn worthy to say


2nd verse
There blowin smoke everywhere around the block
You can smell it you can tell "em" by the way we talk
Somebody stoll 5 for gasoline
Who told ya who told ya


Chorus
C           D             A
How about if I stay and you run away
C              D                  A
Well come on back and try again some other day
C          D          A
Well somebody's gonna do it again
C               D                    A
Gonna make me turn against all of my friends
C                D                A
So you better have sommething damn worthy to say


then play this for the bridge
A      E       C        G
I'll never do it again no I won't
D         C
Let's settle it we don't
A         E        C         G
I can't afford my life cause i'm spendin it
D              C
Since you got just what you wanted

3rd Verse
We never do anything anymore
One eye on the television and one on the door
Somebody said revenge is served sweeter cold
Who told ya who told ya

The Sing this staight after that verse

There growin dope everywhere around the block
You can smell it you can tell "em" by the way they talk
Somebody stole five for gasoline
Who told ya who told ya


Chorus
C           D             A
How about if I stay and you run away
C              D                  A
Well come on back and try again some other day
C          D          A
Well somebody's gonna do it again
C               D                    A
Gonna make me turn against all of my friends
C                D                A
So you better have sommething damn worthy to say


then play this for the bridge
A      E       C        G
I'll never do it again no I won't
D         C
Let's settle it we don't
A         E        C         G
I can't afford my life cause i'm spendin it
D              C
Since you got just what you wanted


then play this for the bridge
A      E       C        G
I'll never do it again no I won't
D         C
Let's settle it we don't
A         E        C         G
I can't afford my life cause i'm spendin it
D              C
Since you got just what you wanted

Вверх
 Woke Up This Morning


intro
--------------------------------
--------------------------------
--------------------------------
-----12---12-----12---12----1010
--------9-----------9--------9-9
--0-0--------0-0---------0-0----

--------------------------------
--------------------------------
--------------------------------
-----12---12-----12---12-----8-8
--------9-----------9-----------
--0-0--------0-0---------0-0-8-8

--------------------------------
--------------------------------
--------------------------------
-----12---12-----12---12-----3-3
--------9-----------9-----------
--0-0--------0-0---------0-0-3-3

--------------------------------
--------------------------------
--------------------------------
------5-------------------------
------3------3------------------
---0------0--3------------------

VerseOutro PM
--------------------------------
--------------------------------
--------------------------------
-----12---12-----12---12----10--
--------9-----------9--------9--
--0-0--------0-0---------0-0----

--------------------------------
--------------------------------
--------------------------------
-----12---12-----12---12-----8--
--------9-----------9-----------
--0-0--------0-0---------0-0-8--

--------------------------------
--------------------------------
--------------------------------
-----12---12-----12---12-----3--
--------9-----------9-----------
--0-0--------0-0---------0-0-3--

--------------------------------
--------------------------------
--------------------------------
------5-------------------------
------3------3------------------
---0------0--3------------------

--------------------------------
--------------------------------
--------------------------------
-----12---12-----12---12----10--
--------9-----------9--------9--
--0-0--------0-0---------0-0----

Pre-Chorus 1
-------------------------------------
-------------------------------------
-------------------------------------
-----12---12-----10--12----12--14-- (2x)
--------9----------------------------
--0-0--------8-8---------10----------

-----------------------------------------
-----------------------------------------
-----------------------------------------
-----12---12-------10--12------12--14--
--------9--------------------------------
--0-0--------10-10---------12-12---------

Pre-Chorus 2 PM
--------------------------------------------------
--------------------------------------------------
-----3---3---3-------5---5---5---3-3-3-3--5-5-5-5-
---3---3---3---3---5---5---5---5-3-3-3-3--5-5-5-5-
-1---------------3---------------1-1-1-1--3-3-3-3-
--------------------------------------------------

Chorus
--------------------------------
--------------------------------
--------------------------------
------------------8-8-8--3-3-3- (2x)
-----7-8-9---9------------------
---0-------0------8-8-8--3-3-3-

--------------------------------------------------------
--------------------------------------------------------
--------------------------------------------------------
------------------8-8-8--3-3-3--8-8-8--3-3-3--5--3-
-----7-8-9---9------------------------------------------
---0-------0------8-8-8--3-3-3--8-8-8--3-3-3--5--3-

Interlude PM
----------------------------------
----------------------------------
----------------------------------
----------------------------------
-----7-8-9--8-5-3-----7-8-9-------
---0----------------0-------6-5-3-

----------------------------------
----------------------------------
----------------------------------
----------------------------------
----7-8-9--8-5-3-----7-8-9--------
--0----------------0-------5b-5-3-

----------------------------------
----------------------------------
----------------------------------
----------------------------------
-----7-8-9--7-3-5-----7-8-9-------
---0----------------0-------7-3-5-

----------------------------------
----------------------------------
----------------------------------
----------------------------------
-----7-8-9--7-3-5-----7-8-9-------
---0----------------0-------7-3-5-
Order:

Intro
Verse
Pre-Chorus 1
Pre-Chorus 2
Chorus
Verse
Pre-Chorus 1
Pre-Chorus 2
Chorus
Verse
Interlude
Pre-Chorus 2
Chorus
Outro 
Вверх