Safri Duo

All The People In The World

Вверх

All The People In The World
Intro:

Play X 3
e|-------------------|
B|-------------------|
G|-------------------|
D|-------------------|
A|------6------------|
E|--6-6--------------|


Verse:

keep repeating
e|-------------------|
B|-------------------|
G|-------------------|
D|-------------------|
A|------6------4-----|
E|--6-6----4-4-------|



Chrous Riff(play X4):


e|-13-----6-8-9--------11-9-11-8-8-9-11-13-----------------------------------|
B|-----6---------7-7------------------------9-9--9-7-9-----------------------|
G|---------------------------------------------------------------------------|
D|---------------------------------------------------------------------------|
A|---------------------------------------------------------------------------|
E|---------------------------------------------------------------------------|


e|------6-8-9-------11-9-11-8-8-9-11-13------16-14-13-14---------------------|
B|--6-6--------7-7-----------------------9-----------------------------------|
G|---------------------------------------------------------------------------|
D|---------------------------------------------------------------------------|
A|---------------------------------------------------------------------------|
E|---------------------------------------------------------------------------|
Вверх