Gwen Stefani

4 In The Morning

BUBBLE POP ELECTRIC

Cool

Cool версия2
Early Winter

Luxurious

The Sweet Escape

Wonderful Life

Вверх

4 In The Morning

Chords used:
Am -  x02210
C -   x32010
F -   133211
G/B - x2x003
G -   320033
G# -  466544
Bb -  x13331
Gm -  355333
Cm -  x35543

Intro: Piano (x2)
Am                                 C
e|-------------------12----------|-------------12----------------------|
B|----------13----13----15-13-12-|----------13----15-13----------13----|
G|-------14----14----------------|-------12-------------12----12----12-|
D|----14-------------------------|----14-------------------14----------|
A|-12----------------------------|-15----------------------------------|
E|-------------------------------|-------------------------------------|
then
F                    C          G/B
e|-------------------12----------|-------------12----------------------|
B|----------13----13----15-13-12-|----------13----15-13----------13----|
G|-------------14----------------|-------12-------------12----12----12-|
D|-------15----------------------|----14-------------------14----------|
A|----15-------------------------|-15----------14----------------------|
E|-13----------------------------|-------------------------------------|

Verse 1:
Am                  C
Wakin up to find another day
F                         C
The moon got lost again last night
Am                            C
But now the sun has finally had it

Вверх

BUBBLE POP ELECTRIC

табулатура
intro

E--------------------------------------|
B--------------------------------------|
G-------------------6-6-6-6------------|
D---7-7-7-7-6-6-6-6---------4-4-4-4----|
A------------------4-4-4-4-------------|
E--5-5-5-5-4-4-4-4---------2-2-2-2-----|


verse

E--------------------------------|
B--------------------------------|
G--------------------------------|
D--------------------------------|
A----------4-4-------------------|
E--5-5-4-4-----2-2---------------|


Im not sure how many times to play each note but you should be able to figure it out

chorus

E--------------------------------------|
B--------------------------------------|
G--------------------6-6-6-6-----------|
D--7-7-7-7--6-6-6-6--4-4-4-4--4-4-4-4--|
A--7-7-7-7--6-6-6-6--4-4-4-4--4-4-4-4--|
E--5-5-5-5--4-4-4-4-----------2-2-2-2--|

thats preety much it

Вверх

Cool

D                         A
It's hard to remember how it felt before
Now I found the love of my life...
D                   A
Passes things get more comfortable
Everything is going right
G                   A
And after all the obstacles
D                              Dmaj7
It's good to see you now with someone else
G                A             D             Dmaj7
And it's such a miracle that you and me are still good friends
G                          A
After all that we've been through
I know we're cool>>> D back to chorus pattern


We used to think it was impossible
Now you call me by my new last name
Memories seem like so long ago
Time always kills the pain

Remember Harbor Boulevard
The dreaming days where the mess was made
Look how all the kids have grown
We have changed but we're still the same
After all that we've been through
I know we're cool

( chorus pattern used on bridge)
And I'll be happy for you
If you can be happy for me
Circles and triangles, and now we're hangin' out with your new girlfriend
So far from where we've been
I know we're cool

Вверх

Cool версия2

D                         G
It's hard to remember how it felt before
A
Now I found the love of my life...
D                   G
Passes things get more comfortable
A
Everything is going right

G                   A
And after all the obstacles
D                              Dmaj7
It's good to see you now with someone else
G                A             D             Dmaj7
And it's such a miracle that you and me are still good friends
G                          A
After all that we've been through
D                 back to chorus pattern
I know we're cool


We used to think it was impossible
Now you call me by my new last name
Memories seem like so long ago
Time always kills the pain

Remember Harbor Boulevard
The dreaming days where the mess was made
Look how all the kids have grown
We have changed but we're still the same
After all that we've been through
I know we're cool

( chorus pattern used on bridge)
And I'll be happy for you
If you can be happy for me
Circles and triangles, and now we're hangin' out with your new girlfriend
So far from where we've been
I know we're cool

Cool Chords at TabRobot.Com  Print this tab | Mail to a friend | Report bad tab
About | Help | Site Ma

Вверх


Early Winter

Em                          D
You, you know how to get me so low
C                   G
My heart had a crash when we spoke
D              Am
I can't fix what you broke
Em                     D
You, you always have a reason
C                  G
Again & again this feelin'
D        Am
Why do I give in?
Em   G          D          C       Em
& I always was, always was one for crying
G          D       Am
I always was one for tears


[CHORUS]
D
The sun's getting cold, It's snowing
C      G   D
Looks like an Early Winter for us
C      G   D
Looks like an Early Winter for us
Am
An Early Winter
D                     C
Oh I need you to turn me over


[VERSE 2]
Em                               D
It's sad the map of the world is on you
C               G
The moon gravitates around you
D         Am
The seasons escape you
Em  G           D          C       Em
& I always was, always was one for crying
G          D       Am
I always was one for tears
Em G         D         C       Em
No, I never was, never was one for lying
G          D            Am
You lied to me all of these years
[CHORUS]

[BRIDGE]

Em
Why?
G                 D
Why do you act so stupid?
Em
Why?
G                        D
You know that I'm always right

[CHORUS]
It looks like an Early Winter for us
It hurts & I can't remember sunlight
An Early Winter for us
The leaves are changing colour for us
& it gets too much, yeah it gets so much
Starting over & over & over again
& it gets too much, yeah it gets so much
Starting over & over & over again
& it gets too much, yeah it gets so much
It looks like an Early Winter for us

Вверх


Luxurious
CHORUS:
Fmaj7
e|--0---------------------------------------x-----------------------------|
B|--1---------------------------------------6-----------------------------|
G|--2---------------------------------------4-----------------------------|
D|--3---------------------------------------6-----------------------------|
A|--3---------------------------------------5-----------------------------|
E|--1---------------------------------------0-----------------------------|
working so hard every night and day and now we get the payback


Am7                                Gm7            C
e|-0----------------------------------3-------------0---------------------|
B|-1----------------------------------3-------------1---------------------|
G|-0----------------------------------3-------------0---------------------|
D|-2----------------------------------3-------------2---------------------|
A|-0----------------------------------5-------------3---------------------|
E|------------------------------------3-----------------------------------|
trying so hard saving up the paper now we get to lay back

Fmaj7
e|--0---------------------------------------x-----------------------------|
B|--1---------------------------------------6-----------------------------|
G|--2---------------------------------------4-----------------------------|
D|--3---------------------------------------6-----------------------------|
A|--3---------------------------------------5-----------------------------|
E|--1---------------------------------------0-----------------------------|
working so hard every night and day and now we get the payback


Am7            Gm7     C
e|-------0--------------3------0-------|
B|-------1--------------3------1-------|
G|-------0--------------3------0-------|
D|-------2--------------3------2-------|
A|-------0--------------5------3-------|
E|----------------------3--------------|
the payback    the payback

VERSE:

Fmaj7                                  Am7                   Gm7  C
e|---0-----------------x--------------------0---------------------3---0--|
B|---1-----------------6--------------------1---------------------3---1--|
G|---2-----------------4--------------------0---------------------3---0--|
D|---3-----------------6--------------------2---------------------3---2--|
A|---3-----------------5--------------------0---------------------5---3--|
E|---1-----------------0------------------------------------------3------|
champagne kisses hold me       in our lap    of         luxury
I only wanna fly first class desires     you're    my    limousine
so elegant    the way we ride     our passion it just       multiplies
there's platinum lightning in the sky look I'm living like a queen
this kind of       love is getting expensive we know           how to
we're        luxurious like egyptian    cotton             |_live baby





Вверх

The Sweet Escape
|Bbm Db|Eb7 Fmaj7|
This is being repeated many times.

And then it goes:
|Db|Fm/C|Bbm7|Fm|Ebm|Ebm|Eb/Ab|Ab7|
|Db|Fm/C|Bbm7|Fm|Ebm|Ebm|Eb/Ab|F7|
Then it starts over again.
Thats all.




The Sweet Escape

-Intro and Verses-

Chords during verse
e---6-----4----3-----2------------     -------------------|
b---6-----6----4-----2------------     -------------------|
g---7-----6----3-----3------------     -------------------|
d---------------------------------     ----8---6---5---4--|
a---------------------------------     ----8---6---5---4--|
e---------------------------------     ----6---4---3---2--|


-Chorus-

e---------------------------------------------|
b---------------------------------------------|
g----6----6-----------------------------------|
d----6----6----8-----3----4----6--------------|
a----4----3----8-----3----4----6--------------|
e----4----3----6-----1----2----4--------------|

Вверх
 
 Wonderful Life
Am             C
I haven't thought of you for years you know
G                    Am
Your memory seems to come & go
Am                C
Our time meant so much to me
G                Am
Now you can't be found
C            Am                    C                     Em
You were the first to want me, the first to love me, the first to need me
C           Am                    C                     Em
Who was the last to know you? The last to love you? The last to hold you?

Am                  C
It's a wonderful Wonderful Life (so wonderful)
Am                  C
It's a wonderful Wonderful Life (so wonderful)
Am                  C
It's a wonderful Wonderful Life (so wonderful)
G                   Am
Such a wonderful Wonderful Life

Am             C
I thought of you again today
G                    Am
Reminded me how with time I've changed
Am                 C
If you only knew what you gave to me
G                Am
Now you can't be found
C            Am
You were the first I trusted
C                           Em
I learned what love is when we were just kids
C                   Am        C                        Em
When did you get so lost? How could you think you were better off?


Am                  C
It's a wonderful Wonderful Life (so wonderful)
G                 Am
Why'd you have to say goodbye?
Am                  C
It's a wonderful Wonderful Life (so wonderful)
G                   Am
Such a wonderful Wonderful Life

Em                  Am
Thank you for those special moments
C                    G
You will always be here in my mind
Em                  Am
Did you know you changed my life?
Em                Am
I'm thankful for that time
Em                Am
I'm thankful for that time
Em                G
I'm thankful for that time


Am                  C
It's a wonderful Wonderful Life
G                    Am
Why'd you have to say goodbye?
Am                  C
It's a wonderful Wonderful Life (so wonderful)
G                       Am
I'm asking why but I'll never know
Am                  C
It's a wonderful Wonderful Life (so wonderful)
G                    Am
Why'd you have to say goodbye?
Am                  C
It's a wonderful Wonderful Life (so wonderful)
G                   Am
Such a wonderful Wonderful Life


Вверх