Урок 10 — упражнение на перебор.

Назад- —Меню-
-Далее

Я решил вам не давать отдельную какую-то песню, а дать вам очень хорошее упражнение на перебор.
Заодно познакомимся с табами. Материал по табам можно найти
здесь.
Начинаем с аккорда Am — это важно.

|--------------------------------------------
|--------1--------1-------0-------0-------0--
|------2--------2-------0-------0-------2----
|----2--------2-------2-------2-------1------
|--0--------3--------------------------------
|-------------------0-------3-------2--------

|--------------------------------------------
|--------0-------0-------0-------------------
|------2-------0-------0---------------------
|----1-------2-------2-----------------------
|--2-----------------------------------------
|----------3-------3-------------------------

Это упражнение наывается по-разному. Но самое распространенное название — цыганочка.
Как видите, здесь хорошо работают все пальцы. Теперь еще вопрос — как играть? Сначала как по табам, потом увеличивать скорость и играть щипком, потом чередовать щипок-перебор и по наростающей.
Удачи в тренировках.