Урок 11 — Баррэ.

Назад- —Меню-
-Далее

На этом уроке мы изучим, что такое баррэ. Баррэ — это тотже аккорд, только при этом указательный палец левой руки перекрывает все 6 струн. Новичку зажать баррэ тяжеловато, поэтому тренируйте сначала просто аккорд F, но так, чтобы все струны звучали.
Вот аппликатура аккорда:

F
|-1---------
|-1---------
|----2------
|-------3---
|-------3---
|-1---------

Когда вы уже бкдете легко зажимать аккорд, перейдите к следующему упражнению, оно очень хорошо развивает пальчики левой руки.

|--------1-------2-------3-------4-------5-------6---------
|------1-------2-------3-------4-------5-------6-----------
|----2-------3-------4-------5-------6-------7-------------
|----------------------------------------------------------
|--3-------4-------5-------6-------7-------8---------------
|-------Смещайте аккорд вправо до лада десятого и обратно--

Также, помимо аккорда F, тренируйте нижеперечисленные:

Hm
|-2---------
|-----3-----
|--------4--
|--------4--
|-2---------
|-2---------

F#
|-2---------
|-2---------
|-----3-----
|--------4--
|--------4--
|-2---------

G
|-3---------
|-3---------
|----4------
|--------5--
|--------5--
|-3---------

Gm
|-3---------
|-3---------
|-3---------
|--------5--
|--------5--
|-3---------

На следующем уроке изучим последовательности этих аккордов, которые нам понадобятся при пении.