Бони неМ

Livin La Vida Loca

Вверх

Livin La Vida Loca


intro and main riff:

d|--------------------------------------
a|--------------------------------------
f|-7-7--------------7-7-----------------
c|-7-7-----5-88-7---7-7-------5---------
g|-5-5---8----------5-5---8-7---8-7-5---
D|--------------------------------------

Куплет (играется под основной рифф)

she's into suprestitons black cats and voodoo dolls
i feel a premonition that girls gonna make me fall

bridge:

G5                                    A5
she'll make you take your clothes off and go dancing in the rain
B5                                     C5
she'll make you live her crazy life but shell take away your pain
A5
like a bullett to your brain

chorus:

D5                       C5             D5
upside inside out she's living la vida loca
D5                           C5            D5
she'll push and pull you down livin la vida loca
D5                          C5             D5
her lips are devil red and her skins the color mocco
D5                   C5            D5
she will wear you out livin la vida loca

woke up in New York city in a funky cheap hotel
she took my and and took my money she most have slipped me a sleeping pill

Соло:

d|-----------------------------------------------------------------
a|-----------------------------------------------------------------
f|---------------------5-5-5-5-7-----------------------------------
c|-------3-5-7-7-7-5-7-----------7---5-3-3-3-3-5-------3-5-2-------
g|-5-5-5-----------------------------------------5-5-5-------3-5---
D|-----------------------------------------------------------------

d|-------------------------8-8-8-10------------------------------------
a|-------6-8-10-10-10-8-10----------10---8-6-6-6-6-8-------6-8-5-------
f|-7-7-7---------------------------------------------7-7-7-------5-7---
c|---------------------------------------------------------------------
g|---------------------------------------------------------------------
D|---------------------------------------------------------------------

bridge
Вверх