Кирпичи

Вечный символ страха
Водка — плохо
Глотай
Друг всегда с тобой
Интернет
Новый Порядок
Про друзей
Так надо


Вверх

Вечный символ страха

F                Em
Я помню страшный день,
G               E
Начался ужасный бал,
F              Em
Изгоняя с мира лень,
G                E
Вдруг обрушился металл.

F              G     Em
Чёрный свет извергло солнце,
F            G   E
Торжествуют силы зла,
F       G    Em
Негодяи и подонки,
F               G    E
Бал свой правят до утра.

F     G              E        E
Вечный символ страха
F     G              E        E
Вечный символ страха

Проигрыш

F             G   Em
Толпы злобных сатанистов
F            G   E
Пляшут танец сатаны.
F                 G    Em
В мёртвом вихре вьются листья,
F          G     E
И восстали мертвецы.


F            G    Em
Злобно руки простерев,
F               G  E
Смерть летит из мрака,
F         G     Em
Появился чёрный лев –
F             G   E
Вечный символ страха.

F     G              E        E
Вечный символ страха
F     G              E        E
Вечный символ страха

Проигрыш

F     G              E        E
Вечный символ страха
F     G              E        E
Вечный символ страха
F     G              E        E
Вечный символ страха
F     G              E        G
Вечный символ страхааааа

Вверх

Водка — плохо

Riff 1
1|-----------------|
2|-----------------|
3|-----------------|
4|--2--2--2--2--2--|
5|--2--2--2--2--2--|
6|--0--0--0--0--0--|

Riff 2:
1|--------------------------------|---------------------------|
2|--------------------------------|---------------------------|
3|--------------------------------|---------------------------|
4|--2-2-2--0-5-0-4---0-5-4-5-4-5--|--2-2-2--0-5-0-4--0-5-4-5--|
5|--2-2-2--0-5-0-4---0-5-4-5-4-5--|--2-2-2--0-5-0-4--0-5-4-5--|
6|--0-0-0--0-3-0-2---0-3-2-3-2-3--|--0-0-0--0-3-0-2--0-3-2-3--|

Riff 3:
1|-------------------------|
2|-------------------------|
3|--7/9999999999999999999--|
4|--7/9999999999999999999--|
5|--5/7777777777777777777--|
6|-------------------------|

Riff 4:

1|-----------|
2|-----------|
3|-----------|
4|--2--2--2--|
5|--2--2--2--|
6|--0--0--0--|


Riff 1:

Водка - плохо
Водка - плохо
Плохо

Riff 2

Riff 1:

Водка - плохо
Водка - плохо
Плохо

Riff 3:

Последний раз был трезв, был солнечный день,
Было жарко, я очнулся и с трудом отполз в тень.
Никотин был на завтрак , потом я резко встал,
Выпил чашку пива и все резко осознал

Что было вчера - просто ужасно,
До кого-то момента я помню все прекрасно,
Все было так прилично, зачем же я бухал
И только что я остро и внезапно осознал:

Riff 1:

Водка - плохо
Водка - плохо
Плохо

Riff 2

Riff 1:

Водка - плохо
Водка - плохо
Плохо

Riff 3:

Digital портвейн убирает метко,
Вкус во рту - это цифра на этикетке.
Я плохо помню все,  но это уже не важно,
С мыслями собрался и пошел домой отважно

Последний раз я был трезв, был солнечный день,
Было жарко, я очнулся и с трудом отполз в тень.
Никотин был на завтрак , потом я резко встал,
Выпил чашку пива и все резко осознал

Riff 1:

Водка - плохо
Водка - плохо
Плохо-о-о-о-о-о-о-о-о-о-о-о

Riff 2

Riff 4

Вверх

Глотай

Вступление(x4):

E5    D5        C#5              G5         A5

e|---------------------------------------------------------
h|---------------------------------------------------------
g|--9-9--7-7-7-7--6-6-6-6-6-6------------------------------
d|--9-9--7-7-7-7--4-4-4-4-4-4-----5-5-5-5-5-5--7-7-7-7-7-7-
a|--7-7--5-5-5-5--4-4-4-4-4-4-----5-5-3-5-5-5--7-7-7-7-7-7-
e|--------------------------------3-3-3-3-3-3--5-5-5-5-5-5-

d|---------------3--1----------------------
a|-------5-----5---------------------------
e|--5--------5-----------------------------



Ты так прекрасна: тело, глаза,
Всё на местах.
Нежное, сочное, вкусное, мягкое
Мясо в зубах.
Ты-самая лучшая вещь на планете,
Ты-идеал.
Долго я ждал такую, как ты,
Я выл и стонал.

G5
Я Так себя завёл, считая серые дни,
F5
Я всё равно смотрю в лес, как меня ни корми,
G5
Я тебя сожру, и это- мой долг.
F5                  G5     A5
Волк- на то он и волк

E5    D5  C#5
Глотай
G5             A5
Цепь тяжела и наручники жмут
E5    D5  C#5
Глотай
G5             A5
Я не понимаю, что я делаю тут.
E5    D5  C#5
Глотай
G5              A5
Быстро глотай, а то тебя сожрут
E5    D5  C#5
Глотай
G5                A5
Глотай, глотай, так меня зовут




Собаки поджали хвосты, сказали, что
Я- им брат.
Ты смотришь в глаза, ты хочешь забрать
Мою душу.
Я никогда не делаю так, как
Мне говорят.
Я так спокоен, когда мне
Не хочется кушать.

Я слышал голоса,но они мне врут
Я не понимаю, что я делаю тут
Я всё равно смотрю в лес, как меня ни корми,
Это- в крови

Припев.

проигрыш(x4):
e|---------------------------
h|---------------------------
g|---------------------------
d|--9---7---6-----3---5--7---
a|--7---5---4-----3---5--7---
e|--7---5---4-----1---3--5---

Вверх

Друг всегда с тобой

                G
Где бы ты не был, куда бы ты не шел
Друг всегда с тобой и это хорошо
Em
Если тебе вдруг станут бить морду
Друзья отгонят злыдня - я знаю твердо
C
Если вы с другом не поделили бабенку
D
Друг ее уступит деликатно и тонко
G
Если у тебя вдруг кончилась жратва
Друг вызвонит богатую телку сперва

Друг есть друг: на хмельной пирушки,
На сцене, в  у совместной подружки
Если ты во сне задумаешь блевать
Друг перевернет на живот тебя опять
Если ты бухой будешь ползать по квартире
Друг закроет тебя в сортире
Если у тебя начался вдруг запой
Друг его поддержит - он всегда с тобой
Если ты встал на кривую дорожку
Друг тебе поставит подножку
Если ты упал и подняться не смог
Друг под зад тебе отвесит пинок
Если твой хвост отсох и упал
Друг скажет тебе: отдохни, ты устал
Друзья всегда помогут, имейте ввиду
Поверьте, чуваки ( - я не подведу)

G*
Друг всегда с тобой (друг всегда с тобой)
Em*
Если ты бухой (если ты бухой)
Csus2 Dsus2
Если вдруг запой и ты никакой
G*
Друг всегда с тобой

G* Em* Csus2 Dsus2
[e |x-| x-| 3-| 5-|
B |0-| 0-| 3-| 5-|
G |2-| 0-| 5-| 7-|
D |0-| 4-| 5-| 7-|
A |2-| 2-| 3-| 5-|
E |3-| 0-| x-| x-|]

Вверх


Интернет

Riff 1
introamp;verse(grunge) / x - мёртвая нота
C#5           H#5           B
E|-------------------------------------------------
B|-------------------------------------------------
F|--6----6----6---5----5----5---3--3--3----3--3--3-
A|--6--х-6--х-6-х-5--х-5--х-5-х-3--3--3----3--3--3- ( x 4 )
D|--4--х-4--х-4-х-3--х-3--х-3-х-1--1--1----1--1--1-
E|-------------------------------------------------

Riff 2
H                            B
E|--------------------------------------------------------
B|--------------------------------------------------------
F|------4-----4------4------4------3------3------3------3-
A|------4-----4------4------4------3------3------3------3-
D|--2-2----2-2----2-2----2-2----1-1----1-1----1-1----1-1--
E|--------------------------------------------------------
H                             B
-----------------------------
-----------------------------
---3--3--3--3-3-3-3----------
---3--3--3--3-3-3-3----------
---1--1--1--1-1-1-1----------
-----------------------------
intro:
Riff 1

verse:
Riff 1
C#5              H#5            B
Хочу заниматься любовью подруга с тобой через сеть интернет
Чтоб Мы наплодили таких же, как мы, - современных
Riff 2
H
Насилие - это смешная вещица
B
Оставьте в покое меня
H                   B
Не оставляйте меня одного

Ищу в секонд хэнде красивые шмотки, чтобы стильно одеться на рейв
А раньше я думал шедевры писать акварелью
Мое поколение не любит любовь

Оставьте в покое меня
Не оставляйте меня одного

Ночная гитара я гладил струну завывая вчера
Теперь я смотрю наркоманские фильмы смешные
Мне нравится это и значит это так надо

Оставьте в покое меня
Не оставляйте меня одного  

Вверх


Новый Порядок
D     F#     G      E
Снова весна и поетому прёт,
Был я зависим а Щас не зависим
Выстрел был дан, надо двигать вперед.
Мы никогда не виснем   ...

Припев:
A#     G       D
Новый порядок - кровь,
Перемешается в области таза.
Я как всегда, будь готов
Прямо щас сразу.

Улица злится, дома Upgreat,
Дети как будто нанюхались клею.
Новый порядок ловите момент,
Я на глазах умнею.

Припев: 2x 

Вверх
Про друзей
C
Где бы ты ни был, куда бы ты не шел
Друг всегда с тобой и это хорошо
Am
Если тебе вдруг станут бить морду
Друзья отгонят злыдней, я знаю твердо
F
Если вы с другом не поделили бабенку
G
Друг ее уступит деликатно и тонко
C
Если у тебя вдруг кончилась жратва
Друг вызвонит богатую телку сперва

Друг есть друг: на хмельной пирушке,
На сцене, в койке у совместной подружки
Если ты во сне задумаешь блевать
Друг перевернет на живот тебя опять
Если ты бухой будешь ползать по квартире
Друг закроет тебя в сортире
Если у тебя начался вдруг запой
Друг его поддержит, он всегда с тобой.
Если ты встал на кривую дорожку
Друг тебе поставит подножку
Если ты упал и подняться не смог
Друг под зад тебе отвесит пинок
Если твой хвост отсох и упал
Друг скажет тебе: отдохни, ты устал
Друзья всегда помогут, имейте ввиду
Поверьте, чуваки друзья нигде не подведут

C
Друг всегда с тобой
Am
Если ты бухой
F            G
Если вдруг запой и ты никакой
C
Друг всегда с тобой

Один за всех и все за одного
Я для чуваков не пожалею ничего
Ты дашь другу денег, Ты дашь ему немножко
Даже если он тебе должен стошку
Если в кране нет воды
Значит, не друг ее выпил, а ты
Если в кране появилась вдруг вода
Значит это друг отлил ее туда.
Если у тебя потух вдруг косяк
Друг прикурит у мента, и все будет ништяк
Если ты вдруг попал в ментовку
Друг тебя оттуда вытащит ловко
Если вы вместе попали к ментам
Развлечет тебя беседой, будет весело там
Если тебя запилила жена
Будет ядом дружбы отравлена она.
Если в ночном клубе выключили свет
Друг стырит для тебя из бара пачку сигарет
В гардеробе украли куртку – непруха
Друг не пожалеет последнюю косуху
Если у тебя развязались шнурки
Друг завяжет их зубами, ведь вы же не враги
Мало ли что может случится с тобой
Стихийное бедствие, любовь или запой.

соло
С         Am           F          G            C
1----------------------------------------------------------
2-5-6-5-----5-6-5---5--------5-6--------6-5----------5-----
3-------7-5-------7------5-7-----5--5-7-----7---7-5----7-5-
Вверх
 
Так надо
/Em C H Am G F#/
/Em G C H/
Em    G     C      H
Из глаз твоих течёт слеза
Зелёной слизью по щекам
Полюбишь ты меня тогда
Em    G      C     H   Em G C H
Когда мы будем плакать
Из глаз моих течёт слеза
Собаки лают страх
А может просто я попал
А ты всё таже в снах
Em  С H Am G F#
Вверх