Пассаж

Дорога в Небеса
Разве ты не любишь ночь

Вверх

 Дорога в Небеса
Bass 1:
2:---------------------6------------7-------7----------------
3:------4-------4--4-----4---4--5-----5---5--------9-------7-
4:-2------2---2--------------------------------7-----7---5---

2:---------------------6------------2-------2----------------
3:------4-------4--4-----4---4--0-----0---0--------9-------7-
4:-2------2---2--------------------------------7-----7---5---

2:---------------------6------------7-------7----------------
3:------4-------4--4-----4---4--5-----5---5--------7-------7-
4:-2------2---2--------------------------------5-----5---5---

2:---------------------6------------7-------7------9-------9--
3:------4-------4--4-----4---4--5-----5---5----7-----7---7----
4:-2------2---2-----------------------------------------------

Bass 2:

2:---------------------6------------2-------2----------------
3:------4-------4--4-----4---4--0-----0---0--------9-------6-
4:-2------2---2--------------------------------7-----7---4---

2:---------------------6------------2-------2----------------
3:------4-------4--4-----4---4--0-----0---0--------9-------9-
4:-2------2---2--------------------------------7-----7---7---

Fm#    Cm#  D       Hm      A
Снова ночь. И снова ветер в лицо.
Fm# Cm# A             Hm      A
Я один под огнём перекрёстных сил.
Fm#   Cm#   D      A
Разум мой, что с тобой
Fm#          Cm#      D           A
Я опять на войне, и всё, что нужно мне...
Fm#            Cm#
Припев: Быть сейчас с тобой,
A               H Gm#
Послать к чёрту бой,
Радость стаканами пить,
Начать новую жизнь,
Забыть про боль и страх.
В душе любовь родить,
И всем всё простить.
Solo:
Fm#        Cm#        A        H     Gm#
1:--------------------4-----------------------|
2:----------------5---------------------------|
3:-----2---4--6--------------6---------8------|  х 2
4:-4---------------------7-----------------9--|
5:-------------------------------7/9----------|
Fm#       Cm#         A        H     Gm#
Свет показался в ночи и больно дернул глаза.
Fm#   Cm#         A               H
Всем стало светло, но на щеке сверкнула слеза.
Упавши на асфальт, посмотрев на грязь и на пыль,
Она улыбнулась мне, и превратилась в новую жизнь.

Припев: И эта самая жизнь,
Расползлась по земле.
И ощутив покой,
Воплотилась во мне.
И я открыл глаза,
Стряхнул пепел с век,
Собравшись с силами, встал
И пошёл наверх.

Outro: К звёздам....
Туда, где ты, где все...
К небу...
Хоть раз взгляну на мир СВЫСОКА   (Solo)
Вверх
Игры, фильмы, музыку, програмы без регистрации и бесплатно
 Разве ты не любишь ночь
Вступление:
Distortion guitar:
C5                     G#5     Bb5
4:------10----10----10--------6-------8---|
5:---10----10----10----10---6---6---8---8-|  x2
6:-8----------------------4-------6-------|

Riff:
Distortion guitar:
4:-10-x-----------------6-6-x-----------|
5:-10-x-----------------6-6-x-----------|  x2
6:-8--x-----------------4-4-x-----------|

Bass:
3:---10---10---10-10-10---6---6---8-8-8-|
4:-8----8----8----------4---4---6-------|

C5
Разве ты не любишь ночь,
Bb5
Что всю землю охлаждает,
G5
Что заботы будние
G#5
В тьму пустую забирает.
Ночью легче нам дышать,
Меньше пыли видно,
И за то, что прожит день,
Как-то не обидно.

Проигрыш: C5 G#5 Bb5 C5 C5 G#5 Bb5 C5 G#5 Bb5 G5 C5 G#5 Bb5 G5 C5 Eb5(11) D5 G

Забываем мы о том,
Что умрём мы скоро.
Мы как будто бы одни
На родном просторе.
Нам обиды нипочём:
Боль не замечаем.
Видя черную луну,
О звезде мечтаем.

Бассовый проигрыш.
Проигрыш.

Вверх